X===============================PLEASE NOTE=====================================
X This tab belongs to its author and represents his interpretation of the song.
X You may only use this tab for private study, scholarship, or research.
X Do not change, deface, mutilate, or in any other way alter this tab.
X You must email the author first if you want to use this tab on your site.
X===============================================================================

Kyuss: Allen's Wrench
From the album: 'Blues For The Red Sun' (Dali)
1992 Dali Records
Lyrics by B. Bjork
Music by Kyuss
Transcribed by Sean Hayter 2001

Tuning: Down 2 Whole Steps to C (C-F-Bb-Eb-G-C)
Notes: 'Allen's Wrench' is track #12 on 'Blues For The Red Sun'

Intro/Main Riff:
C|--------------------------------------------------------------|
G|--------------------------------------------------------------|
Eb|--------------------------------------------------------------|
Bb|---------7~--7----------7~--7----------7~--7------------------|
F|-0---0-0--------0---0-0--------0---0-0--------0--0-0----------|
C|-----------------------------------------------------3h5-3h5--|

C|-------------------------------------------------------------------||
G|-------------------------------------------------------------------||
Eb|-------------------------------------------------------------------||
Bb|---------7~--7----------10~--10----------12~--12-------------------||
F|-0---0-0--------0---0-0----------0---0-0----------0--0-0-----------||
C|---------------------------------------------------------3h5--3h5--||

(alternate ending)
C|-------------------------------------------------------------------||
G|-------------------------------------------------------------------||
Eb|------------------------12~--12----------14~--14-------------------||
Bb|---------7~--7----------10~--10----------12~--12-------------------||
F|-0---0-0--------0---0-0----------0---0-0----------0--0-0-----------||
C|---------------------------------------------------------3h5--3h5--||

Chorus Riff: x3
C|------------------------------------|
G|------------------------------------|
Eb|-9---9---9-9-9-9-9---x-x-12--x-12---|
Bb|-7---7---7-7-7-7-7---x-x-10--x-10---|
F|-0---0---0-0-0-0-0------------------|
C|------------------------------------|

C|-------------------------------------||
G|-------------------------------------||
Eb|-9---9---9-9-9-9-9--------12--12/14--||
Bb|-7---7---7-7-7-7-7----h---10--10/12--||
F|-0---0---0-0-0-0-0--10^12------------||
C|-------------------------------------||

(alternate chorus) (1:29)
C|---------------------------------|---------------------------------||
G|----------h-------h--------------|----------h-------h--------------||
Eb|-9---9-9-7^9-9-9-7^9-9-12--x-12--|-9---9-9-7^9-9-9-7^9-9-12--x-14--||
Bb|-7---7-7---------------10--x-10--|-7---7-7---------------10--x-12--||
F|-0---0-0-------------------------|-0---0-0-------------------------||
C|---------------------------------|---------------------------------||

Outro Riff:
C|-------------------------------------------------||
G|-------------------------------------------------||
Eb|-------------------------------------------------||
Bb|-7--7--7--7--7--7--7--7--5--5--5--4-----4--4--4--||
F|-7--7--7--7--7--7--7--7--5--5--5--4-----4--4--4--||
C|-5--5--5--5--5--5--5--5--3--3--3--2-----2--2--2--||

Lyrics:
Your subdivision
Has been plastic emotion
It's all you get
It's all you get
It's all you get
It's all you get

Allen's wrench, it's all you get
Allen's wrench, it's all you get
Allen's wrench, it's all you get
Allen's wrench, it's all we get

"Man, you better than ever"

Just a like the tension
Magic mother potion
It's all you get
It's all you get
It's all you get
It's all you get

Allen's wrench, it's all you get
Well Allen's wrench, it's all you get
Allen's wrench, it's all you get
Well Allen's wrench, it's all we get

Breathe, for, man, Allen's wrench
Break, shoot, take, it's Allen's wrench
Breathe, for, man, Allen's wrench
Break, shoot, take, it's Allen's wrench